Log in

I forgot my password

Latest topics
Poll

How's ur relationship wif people in UNIMAS???

12% 12% [ 4 ]
41% 41% [ 14 ]
38% 38% [ 13 ]
9% 9% [ 3 ]

Total Votes : 34

Who is online?
In total there are 8 users online :: 0 Registered, 0 Hidden and 8 Guests

None

[ View the whole list ]


Most users ever online was 39 on Sun Nov 15, 2009 7:06 am

Guitar Tabs and Chords, guitar pro links...

View previous topic View next topic Go down

Guitar Tabs and Chords, guitar pro links...

Post by Alan on Sun Feb 01, 2009 12:42 am

I would like to start a platform where we can share some tabs and chords for some popular songs. So I'll start with a song by khalil fong.

-------------------------------------------------------------------------------
歌曲名:四人游
歌手/乐队:方大同
编配者(转载来源):ryoki
-------------------------------------------------------------------------------

四人遊
key: #D play: D capo: 1

前奏
Em7 #DM7 DM7 C7 B7
Em7 #DM7 DM7 CM7 BM7

Em7 A7 DM7 Em7 A7 DM7
你的長髮為何不留  你幹麼會學懂喝酒
Em7 A7 Dm7 #Cm7 Cm7 F7 #A7sus4 A7sus4
你那個男朋友 酒量也算 一流  聊個一整夜只怕不 夠
Em7 A7 DM7 Em7 A7 DM7
你為甚麼跟他鬧酒  你莫非要借酒澆愁
Em7 A7 Dm7 #Cm7 Cm7 F7 #AM7 A
你那個女朋友 到底還有 沒有  搞不好我們四個人  去旅遊

DM7 Em7 #Fm7 A DM7 CM7 #AM7 A7sus4 DM7
*原來一回頭  原來才顯出你 溫柔 我當時愛得不夠
Em7 #Fm7 A DM7 CM7 #AM7 A7sus4 DM7
 原來只能夠做朋友  從前快樂沒變哀愁
Am GM7 CM7 Cm7 Bm7 B7 Em7 A DM7
 原來在那關頭 全因捨得分手  你說是否荒謬 我們比從前看起來更熟
Em7 #Fm7 G A #AM7
我們比從前看起來更熟
Em7 A7 DM7 Em7 A7 DM7
改天你母親搞賀壽  我帶女友出來走走 
Em7 A7 Dm7 #Cm7 Cm7 F7 #AM7 A
你就知我理由 不外乎 太羞 如果要一起去旅遊 去歐洲

Repeat *
Am #AM7 Am7
那天澎一聲關門 就走 很想問 你有沒有眼淚 想流
#Am #GM7 #Am7 C7
你以為 你的魅力大得足夠  少有 我們像在迎新 懷舊
FM7 Gm7 Am7 C FM7 #DM7 #CM7 C7 FM7
原來一回頭  原來才顯出 你溫柔 我當時愛得不夠
Gm7 Am7 C FM7 #DM7 #CM7 C7 FM7
原來只能夠 做朋友 從前快樂沒變哀愁
Cm7 #AM7 #DM7 #Dm7
原來在那關 頭 全因捨得分手
#Cm7 #C7 Gm7 C7
還去不去歐洲 四個人 不許 酸溜溜


DM7的A段兩個過門 (xx0333 xxx222 xx0111 xxx222)

This is from www.jitapu.com
avatar
Alan
Latte
Latte

Male
Number of posts : 49
Age : 31
Registration date : 2008-09-18

Character sheet
Insane Posters:

View user profile

Back to top Go down

Re: Guitar Tabs and Chords, guitar pro links...

Post by Alan on Sun Feb 01, 2009 12:48 am

This is a song I tabbed myself. Mocca's "It's Over Now". Mocca is an Indonesian band that i liked very much due to their "jazzy" style. PM me if u want a guitar pro version.

Mocca-It's Over Now
Tabbed by Alan
Rhythm

E||--L----------------------|-----------------------|-------------------------|
B||-------7--------7--------|-----------------------|-------7--------7--------|
G||-------6--------6--------|-----7------------6----|-------6--------6--------|
D||-------7--------7--------|-----6------------5----|-------7--------7--------|
A||--5-------5--5-----------|-----8------------7----|--5-------5--5-----------|
E||-------------------5--6--|--L-------6--5---------|-------------------5--6--|

-----------------------|-------------------------|-----------------------|
-----------------------|-------7--------7--------|-----------------------|
-----7------------6----|-------6--------6--------|-----7------------6----|
-----6------------5----|-------7--------7--------|-----6------------5----|
-----8------------7----|--5-------5--5-----------|-----8------------7----|
--L-------6--5---------|-------------------5--6--|--L-------6--5---------|

-------------------------|-----------------------|-------------------------|
-------7--------7--------|-----------------------|-------7--------7--------|
-------6--------6-----7--|--------------6--------|-------6--------6--------|
-------7--------7--------|-----------------5-----|-------7--------7--------|
--5-------5--5--------8--|--------------------7--|--5-------5--5--------2--|
-------------------5--6--|-----------5-----------|-------------------5-----|

-------------------------|-------------------------|-------------------------|
-----3----------3-----3--|-------------------------|-------------------------|
-----2----------2-----2--|-------4--------4--------|-----6----------6-----6--|
-----4----------4-----4--|-------5--------5--------|-----5----------5-----5--|
--L-------2--2-----2-----|-------5--------5--------|-----7----------7-----7--|
-------------------------|--0-------0--0-----0--5--|--L-------5--5-----5-----|

-------------------------|-------------------------|-------------------------|
-------7--------7--------|-----3----------3-----3--|-------------------------|
-------6--------6--------|-----2----------2-----2--|-------4--------4--------|
-------7--------7--------|-----4----------4-----4--|-------5--------5--------|
--5-------5--5--------2--|--L-------2--2-----2-----|-------5--------5--------|
-------------------5-----|-------------------------|--0-------0--0-----0--5--|

-------------------------|-------------------------|-------------------------|
-------------------------|-------7--------7--------|-----3----------3-----3--|
-----6----------6-----6--|-------6--------6--------|-----2----------2-----2--|
-----5----------5-----5--|-------7--------7--------|-----4----------4-----4--|
-----7----------7-----7--|--5-------5--5--------2--|--L-------2--2-----2-----|
--L-------5--5-----5-----|-------------------5-----|-------------------------|

-------------------------|-------------------------|-------------------------|
-------------------------|-------------------------|-------7--------7--------|
-------4--------4--------|-----6----------6-----6--|-------6--------6--------|
-------5--------5--------|-----5----------5-----5--|-------7--------7--------|
-------5--------5--------|-----7----------7-----7--|--5-------5--5--------2--|
--0-------0--0-----0--5--|--L-------5--5-----5-----|-------------------5-----|

-------------------------|-------------------------|-------------------|
-----3----------3-----3--|-------------------------|-------------------|
-----2----------2-----2--|-------4--------4-----6--|--L----------------|
-----4----------4-----4--|-------5--------5-----5--|--L----------------|
--L-------2--2-----2-----|-------5--------5-----7--|--L----------------|
-------------------------|--0-------0--0-----0--5--|--L----------------|

-------------------------|-------------------------|-------------------------|
-------7--------7--------|-----3----------3-----3--|-------------------------|
-------6--------6--------|-----2----------2-----2--|-------4--------4--------|
-------7--------7--------|-----4----------4-----4--|-------5--------5--------|
--5-------5--5--------2--|--L-------2--2-----2-----|-------5--------5--------|
-------------------5-----|-------------------------|--0-------0--0-----0--5--|

-------------------------|-------------------------|-------------------------|
-------------------------|-------7--------7--------|-----3----------3-----3--|
-----6----------6-----6--|-------6--------6--------|-----2----------2-----2--|
-----5----------5-----5--|-------7--------7--------|-----4----------4-----4--|
-----7----------7-----7--|--5-------5--5--------2--|--L-------2--2-----2-----|
--L-------5--5-----5-----|-------------------5-----|-------------------------|

-------------------------|-------------------------|-------------------------|
-------------------------|-------------------------|-------7--------7--------|
-------4--------4--------|-----6----------6-----6--|-------6--------6--------|
-------5--------5--------|-----5----------5-----5--|-------7--------7--------|
-------5--------5--------|-----7----------7-----7--|--5-------5--5--------2--|
--0-------0--0-----0--5--|--L-------5--5-----5-----|-------------------5-----|

-------------------------|-------------------------|-------------------------|
-----3----------3-----3--|-------------------------|-------------------------|
-----2----------2-----2--|-------4--------4--------|-----6----------6-----6--|
-----4----------4-----4--|-------5--------5--------|-----5----------5-----5--|
--L-------2--2-----2-----|-------5--------5--------|-----7----------7-----7--|
-------------------------|--0-------0--0-----0--5--|--L-------5--5-----5-----|

-------------------------|-------------------------|-------------------------|
-------7--------7--------|-----3----------3-----3--|-------------------------|
-------6--------6--------|-----2----------2-----2--|-------4--------4--------|
-------7--------7--------|-----4----------4-----4--|-------5--------5--------|
--5-------5--5--------2--|--L-------2--2-----2-----|-------5--------5--------|
-------------------5-----|-------------------------|--0-------0--0-----0--5--|

-------------------------|-------------------------|-----------------------|
-------------------------|-------7--------7--------|-----------------------|
-----6----------6-----6--|-------6--------6--------|-----7------------6----|
-----5----------5-----5--|-------7--------7--------|-----6------------5----|
-----7----------7-----7--|--5-------5--5-----------|-----8------------7----|
--L-------5--5-----5-----|-------------------5--6--|--L-------6--5---------|

-------------------------|-----------------------|-------------------------|
-------7--------7--------|-----------------------|-------7--------7--------|
-------6--------6-----7--|--------------6--------|-------6--------6--------|
-------7--------7--------|-----------------5-----|-------7--------7--------|
--5-------5--5--------8--|--------------------7--|--5-------5--5--------2--|
-------------------5--6--|-----------5-----------|-------------------5-----|

-------------------------|-------------------------|-------------------------|
-----3----------3-----3--|-------------------------|-------------------------|
-----2----------2-----2--|-------4--------4--------|-----6----------6-----6--|
-----4----------4-----4--|-------5--------5--------|-----5----------5-----5--|
--L-------2--2-----2-----|-------5--------5--------|-----7----------7-----7--|
-------------------------|--0-------0--0-----0--5--|--L-------5--5-----5-----|

-------------------------|-------------------------|-------------------------|
-------7--------7--------|-----3----------3-----3--|-------------------------|
-------6--------6--------|-----2----------2-----2--|-------4--------4--------|
-------7--------7--------|-----4----------4-----4--|-------5--------5--------|
--5-------5--5--------2--|--L-------2--2-----2-----|-------5--------5--------|
-------------------5-----|-------------------------|--0-------0--0-----0--5--|

-------------------------|-------------------------|-------------------------|
-------------------------|-------7--------7--------|-----3----------3-----3--|
-----6----------6-----6--|-------6--------6--------|-----2----------2-----2--|
-----5----------5-----5--|-------7--------7--------|-----4----------4-----4--|
-----7----------7-----7--|--5-------5--5--------2--|--L-------2--2-----2-----|
--L-------5--5-----5-----|-------------------5-----|-------------------------|

-------------------------|-------------------------|-------------------------|
-------------------------|-------------------------|-------7--------7--------|
-------4--------4--------|-----6----------6-----6--|-------6--------6--------|
-------5--------5--------|-----5----------5-----5--|-------7--------7--------|
-------5--------5--------|-----7----------7-----7--|--5-------5--5--------2--|
--0-------0--0-----0--5--|--L-------5--5-----5-----|-------------------5-----|

-------------------------|-------------------------|-------------------|
-----3----------3-----3--|-------------------------|-------------------|
-----2----------2-----2--|-------4--------4-----6--|--L----------------|
-----4----------4-----4--|-------5--------5-----5--|--L----------------|
--L-------2--2-----2-----|-------5--------5-----7--|--L----------------|
-------------------------|--0-------0--0-----0--5--|--L----------------|

-------------------------|-------------------------|-------------------------|
-------7--------7--------|-----3----------3-----3--|-------------------------|
-------6--------6--------|-----2----------2-----2--|-------4--------4--------|
-------7--------7--------|-----4----------4-----4--|-------5--------5--------|
--5-------5--5--------2--|--L-------2--2-----2-----|-------5--------5--------|
-------------------5-----|-------------------------|--0-------0--0-----0--5--|

-------------------------|-------------------------|-------------------------|
-------------------------|-------7--------7--------|-----3----------3-----3--|
-----6----------6-----6--|-------6--------6--------|-----2----------2-----2--|
-----5----------5-----5--|-------7--------7--------|-----4----------4-----4--|
-----7----------7-----7--|--5-------5--5--------2--|--L-------2--2-----2-----|
--L-------5--5-----5-----|-------------------5-----|-------------------------|

-------------------------|-------------------------|-------------------------|
-------------------------|-------------------------|-------7--------7--------|
-------4--------4--------|-----6----------6-----6--|-------6--------6--------|
-------5--------5--------|-----5----------5-----5--|-------7--------7--------|
-------5--------5--------|-----7----------7-----7--|--5-------5--5--------2--|
--0-------0--0-----0--5--|--L-------5--5-----5-----|-------------------5-----|

-------------------------|-------------------------|-------------------------|
-----3----------3-----3--|-------------------------|-------------------------|
-----2----------2-----2--|-------4--------4--------|-----6----------6-----6--|
-----4----------4-----4--|-------5--------5--------|-----5----------5-----5--|
--L-------2--2-----2-----|-------5--------5--------|-----7----------7-----7--|
-------------------------|--0-------0--0-----0--5--|--L-------5--5-----5-----|

-------------------------|-------------------------|-------------------------|
-------7--------7--------|-----3----------3-----3--|-------------------------|
-------6--------6--------|-----2----------2-----2--|-------4--------4--------|
-------7--------7--------|-----4----------4-----4--|-------5--------5--------|
--5-------5--5--------2--|--L-------2--2-----2-----|-------5--------5--------|
-------------------5-----|-------------------------|--0-------0--0-----0--5--|

-------------------------|-------------------------|-----------------------|
-------------------------|-------7--------7--------|-----------------------|
-----6----------6-----6--|-------6--------6--------|-----7------------6----|
-----5----------5-----5--|-------7--------7--------|-----6------------5----|
-----7----------7-----7--|--5-------5--5-----------|-----8------------7----|
--L-------5--5-----5-----|-------------------5--6--|--L-------6--5---------|

-------------------------|-----------------------|-------------------------|
-------7--------7--------|-----------------------|-------7--------7--------|
-------6--------6-----7--|--------------6--------|-------6--------6--------|
-------7--------7--------|-----------------5-----|-------7--------7--------|
--5-------5--5--------8--|--------------------7--|--5-------5--5--------2--|
-------------------5--6--|-----------5-----------|-------------------5-----|

-------------------------|-------------------------|-------------------------|
-----3----------3-----3--|-------------------------|-------------------------|
-----2----------2-----2--|-------4--------4--------|-----6----------6-----6--|
-----4----------4-----4--|-------5--------5--------|-----5----------5-----5--|
--L-------2--2-----2-----|-------5--------5--------|-----7----------7-----7--|
-------------------------|--0-------0--0-----0--5--|--L-------5--5-----5-----|

-------------------------|-------------------------|-------------------------|
-------7--------7--------|-----3----------3-----3--|-------------------------|
-------6--------6--------|-----2----------2-----2--|-------4--------4--------|
-------7--------7--------|-----4----------4-----4--|-------5--------5--------|
--5-------5--5--------2--|--L-------2--2-----2-----|-------5--------5--------|
-------------------5-----|-------------------------|--0-------0--0-----0--5--|

-------------------------|-------------------------|-------------------------|
-------------------------|-------7--------7--------|-----3----------3-----3--|
-----6----------6-----6--|-------6--------6--------|-----2----------2-----2--|
-----5----------5-----5--|-------7--------7--------|-----4----------4-----4--|
-----7----------7-----7--|--5-------5--5--------2--|--L-------2--2-----2-----|
--L-------5--5-----5-----|-------------------5-----|-------------------------|

-------------------------|-------------------------|-------------------------|
-------------------------|-------------------------|-------7--------7--------|
-------4--------4--------|-----6----------6-----6--|-------6--------6--------|
-------5--------5--------|-----5----------5-----5--|-------7--------7--------|
-------5--------5--------|-----7----------7-----7--|--5-------5--5--------2--|
--0-------0--0-----0--5--|--L-------5--5-----5-----|-------------------5-----|

-------------------------|-------------------------|-------------------||
-----3----------3-----3--|-------------------------|-------------------||
-----2----------2-----2--|-------4--------4-----6--|--L----------------||
-----4----------4-----4--|-------5--------5-----5--|--L----------------||
--L-------2--2-----2-----|-------5--------5-----7--|--L----------------||
-------------------------|--0-------0--0-----0--5--|--L----------------||
avatar
Alan
Latte
Latte

Male
Number of posts : 49
Age : 31
Registration date : 2008-09-18

Character sheet
Insane Posters:

View user profile

Back to top Go down

Re: Guitar Tabs and Chords, guitar pro links...

Post by 21 on Sun Feb 01, 2009 2:04 pm

wanted to learn guitar, this section would help me out~Thanks

_________________
UKF PR Team is recruiting members. Members who feel interested is welcome to pm me or admin. Remember, no jokes no fools. TQ
avatar
21
ŰĶ PЯ
ŰĶ PЯ

Male
Number of posts : 474
Age : 32
Registration date : 2008-07-23

View user profile

Back to top Go down

Re: Guitar Tabs and Chords, guitar pro links...

Post by Alan on Sun Feb 01, 2009 5:26 pm

Something more simple...

The Beatles - Let It Be

C G Am F
When I find myself in times of trouble Mother Mary comes to me
C G F C-Dm7-C
Speaking words of wisdom, let it be
C G Am F
And in my hour of darkness she is standing right in front of me
C G F C-Dm7-C
Speaking words of wisdom, let it be

Am G F C
Let it be, let it be, let it be, let it be
C G F C-Dm7-C
whisper words of wisdom, let it be

C G Am F
And when the broken hearted people living in the world agree
C G F C-Dm7-C
There will be an answer, let it be
C G Am F
For though they may be parted there is still a chance that they will see
C G F C-Dm7-C
There will be an answer, let it be

Am G F C
Let it be, let it be, let it be, let it be
C G F C-Dm7-C
There will be an answer, let it be
Am G F C
Let it be, let it be, let it be, let it be
C G F C-Dm7-C
whisper words of wisdom, let it be

| F C Dm7 C | F C | G F C . | F C | G F C . |


Instrumental verse

Am G F C
Let it be, let it be, let it be, let it be
C G F C-Dm7-C
whisper words of wisdom, let it be

And when the night is cloudy there is still a light that shines on me
Shine until tomorrow, let it be
I wake up to the sound of music, Mother Mary comes to me
Speaking words of wisdom, let it be

Let it be, let it be, let it be, let it be
There will be an answer, let it be
Let it be, let it be, let it be, let it be
There will be an answer, let it be

Let it be, let it be, let it be, let it be
whisper words of wisdom, let it be

| F C | G F C . |
avatar
Alan
Latte
Latte

Male
Number of posts : 49
Age : 31
Registration date : 2008-09-18

Character sheet
Insane Posters:

View user profile

Back to top Go down

Re: Guitar Tabs and Chords, guitar pro links...

Post by Alan on Sun Feb 01, 2009 5:31 pm

A great site to learn some guitar chords.

http://www.8notes.com/guitar_chord_chart/

Give it a go ;-)
avatar
Alan
Latte
Latte

Male
Number of posts : 49
Age : 31
Registration date : 2008-09-18

Character sheet
Insane Posters:

View user profile

Back to top Go down

Re: Guitar Tabs and Chords, guitar pro links...

Post by Sponsored content


Sponsored content


Back to top Go down

View previous topic View next topic Back to top

- Similar topics

 
Permissions in this forum:
You cannot reply to topics in this forum